  0
SECTION
  2
HEADER
  9
$ACADVER
  1
AC1015
  9
$ACADMAINTVER
 70
     6
  9
$DWGCODEPAGE
  3
ANSI_1254
  9
$INSBASE
 10
0.0
 20
0.0
 30
0.0
  9
$EXTMIN
 10
0.0
 20
0.0
 30
0.0
  9
$EXTMAX
 10
279.4
 20
215.9
 30
0.0
  9
$LIMMIN
 10
0.0
 20
0.0
  9
$LIMMAX
 10
279.4
 20
215.9
  9
$ORTHOMODE
 70
     0
  9
$REGENMODE
 70
     1
  9
$FILLMODE
 70
     1
  9
$QTEXTMODE
 70
     0
  9
$MIRRTEXT
 70
     1
  9
$LTSCALE
 40
1.0
  9
$ATTMODE
 70
     1
  9
$TEXTSIZE
 40
3.5
  9
$TRACEWID
 40
1.0
  9
$TEXTSTYLE
  7
Standard
  9
$CLAYER
  8
0
  9
$CELTYPE
  6
ByLayer
  9
$CECOLOR
 62
   256
  9
$CELTSCALE
 40
1.0
  9
$DISPSILH
 70
     0
  9
$DIMSCALE
 40
1.0
  9
$DIMASZ
 40
3.5
  9
$DIMEXO
 40
1.0
  9
$DIMDLI
 40
3.75
  9
$DIMRND
 40
0.0
  9
$DIMDLE
 40
0.0
  9
$DIMEXE
 40
1.0
  9
$DIMTP
 40
0.0
  9
$DIMTM
 40
0.0
  9
$DIMTXT
 40
3.5
  9
$DIMCEN
 40
2.5
  9
$DIMTSZ
 40
0.0
  9
$DIMTOL
 70
     0
  9
$DIMLIM
 70
     0
  9
$DIMTIH
 70
     1
  9
$DIMTOH
 70
     1
  9
$DIMSE1
 70
     0
  9
$DIMSE2
 70
     0
  9
$DIMTAD
 70
     1
  9
$DIMZIN
 70
     0
  9
$DIMBLK
  1

  9
$DIMASO
 70
     1
  9
$DIMSHO
 70
     1
  9
$DIMPOST
  1

  9
$DIMAPOST
  1

  9
$DIMALT
 70
     0
  9
$DIMALTD
 70
     3
  9
$DIMALTF
 40
0.0393700787
  9
$DIMLFAC
 40
1.0
  9
$DIMTOFL
 70
     1
  9
$DIMTVP
 40
0.0
  9
$DIMTIX
 70
     0
  9
$DIMSOXD
 70
     0
  9
$DIMSAH
 70
     0
  9
$DIMBLK1
  1

  9
$DIMBLK2
  1

  9
$DIMSTYLE
  2
ISO-25
  9
$DIMCLRD
 70
     0
  9
$DIMCLRE
 70
     0
  9
$DIMCLRT
 70
     0
  9
$DIMTFAC
 40
1.0
  9
$DIMGAP
 40
1.524
  9
$DIMJUST
 70
     0
  9
$DIMSD1
 70
     0
  9
$DIMSD2
 70
     0
  9
$DIMTOLJ
 70
     0
  9
$DIMTZIN
 70
     0
  9
$DIMALTZ
 70
     0
  9
$DIMALTTZ
 70
     0
  9
$DIMUPT
 70
     0
  9
$DIMDEC
 70
     2
  9
$DIMTDEC
 70
     2
  9
$DIMALTU
 70
     2
  9
$DIMALTTD
 70
     3
  9
$DIMTXSTY
  7
Standard
  9
$DIMAUNIT
 70
     0
  9
$DIMADEC
 70
     2
  9
$DIMALTRND
 40
0.0
  9
$DIMAZIN
 70
     0
  9
$DIMDSEP
 70
    44
  9
$DIMATFIT
 70
     3
  9
$DIMFRAC
 70
     0
  9
$DIMLDRBLK
  1

  9
$DIMLUNIT
 70
     2
  9
$DIMLWD
 70
    -2
  9
$DIMLWE
 70
    -2
  9
$DIMTMOVE
 70
     0
  9
$LUNITS
 70
     2
  9
$LUPREC
 70
     2
  9
$SKETCHINC
 40
1.0
  9
$FILLETRAD
 40
10.0
  9
$AUNITS
 70
     0
  9
$AUPREC
 70
     2
  9
$MENU
  1
.
  9
$ELEVATION
 40
0.0
  9
$PELEVATION
 40
0.0
  9
$THICKNESS
 40
0.0
  9
$LIMCHECK
 70
     0
  9
$CHAMFERA
 40
0.0
  9
$CHAMFERB
 40
0.0
  9
$CHAMFERC
 40
0.0
  9
$CHAMFERD
 40
0.0
  9
$SKPOLY
 70
     0
  9
$TDCREATE
 40
2459921.519972176
  9
$TDUCREATE
 40
2459921.394972176
  9
$TDUPDATE
 40
2459921.51997235
  9
$TDUUPDATE
 40
2459921.39497235
  9
$TDINDWG
 40
0.0000000116
  9
$TDUSRTIMER
 40
0.0000000116
  9
$USRTIMER
 70
     1
  9
$ANGBASE
 50
0.0
  9
$ANGDIR
 70
     0
  9
$PDMODE
 70
     0
  9
$PDSIZE
 40
-1.0
  9
$PLINEWID
 40
0.0
  9
$SPLFRAME
 70
     0
  9
$SPLINETYPE
 70
     6
  9
$SPLINESEGS
 70
     8
  9
$HANDSEED
  5
CC
  9
$SURFTAB1
 70
     6
  9
$SURFTAB2
 70
     6
  9
$SURFTYPE
 70
     6
  9
$SURFU
 70
     6
  9
$SURFV
 70
     6
  9
$UCSBASE
  2

  9
$UCSNAME
  2

  9
$UCSORG
 10
0.0
 20
0.0
 30
0.0
  9
$UCSXDIR
 10
1.0
 20
0.0
 30
0.0
  9
$UCSYDIR
 10
0.0
 20
1.0
 30
0.0
  9
$UCSORTHOREF
  2

  9
$UCSORTHOVIEW
 70
     0
  9
$UCSORGTOP
 10
0.0
 20
0.0
 30
0.0
  9
$UCSORGBOTTOM
 10
0.0
 20
0.0
 30
0.0
  9
$UCSORGLEFT
 10
0.0
 20
0.0
 30
0.0
  9
$UCSORGRIGHT
 10
0.0
 20
0.0
 30
0.0
  9
$UCSORGFRONT
 10
0.0
 20
0.0
 30
0.0
  9
$UCSORGBACK
 10
0.0
 20
0.0
 30
0.0
  9
$PUCSBASE
  2

  9
$PUCSNAME
  2

  9
$PUCSORG
 10
0.0
 20
0.0
 30
0.0
  9
$PUCSXDIR
 10
1.0
 20
0.0
 30
0.0
  9
$PUCSYDIR
 10
0.0
 20
1.0
 30
0.0
  9
$PUCSORTHOREF
  2

  9
$PUCSORTHOVIEW
 70
     0
  9
$PUCSORGTOP
 10
0.0
 20
0.0
 30
0.0
  9
$PUCSORGBOTTOM
 10
0.0
 20
0.0
 30
0.0
  9
$PUCSORGLEFT
 10
0.0
 20
0.0
 30
0.0
  9
$PUCSORGRIGHT
 10
0.0
 20
0.0
 30
0.0
  9
$PUCSORGFRONT
 10
0.0
 20
0.0
 30
0.0
  9
$PUCSORGBACK
 10
0.0
 20
0.0
 30
0.0
  9
$USERI1
 70
     0
  9
$USERI2
 70
     0
  9
$USERI3
 70
     0
  9
$USERI4
 70
     0
  9
$USERI5
 70
     0
  9
$USERR1
 40
0.0
  9
$USERR2
 40
0.0
  9
$USERR3
 40
0.0
  9
$USERR4
 40
0.0
  9
$USERR5
 40
0.0
  9
$WORLDVIEW
 70
     1
  9
$SHADEDGE
 70
     3
  9
$SHADEDIF
 70
    70
  9
$TILEMODE
 70
     1
  9
$MAXACTVP
 70
    64
  9
$PINSBASE
 10
0.0
 20
0.0
 30
0.0
  9
$PLIMCHECK
 70
     0
  9
$PEXTMIN
 10
1.0000000000E+20
 20
1.0000000000E+20
 30
1.0000000000E+20
  9
$PEXTMAX
 10
-1.0000000000E+20
 20
-1.0000000000E+20
 30
-1.0000000000E+20
  9
$PLIMMIN
 10
0.0
 20
0.0
  9
$PLIMMAX
 10
420.0
 20
297.0
  9
$UNITMODE
 70
     0
  9
$VISRETAIN
 70
     1
  9
$PLINEGEN
 70
     0
  9
$PSLTSCALE
 70
     1
  9
$TREEDEPTH
 70
  3020
  9
$CMLSTYLE
  2
Standard
  9
$CMLJUST
 70
     0
  9
$CMLSCALE
 40
20.0
  9
$PROXYGRAPHICS
 70
     1
  9
$MEASUREMENT
 70
     1
  9
$CELWEIGHT
370
    -1
  9
$ENDCAPS
280
     0
  9
$JOINSTYLE
280
     0
  9
$LWDISPLAY
290
     1
  9
$INSUNITS
 70
     4
  9
$HYPERLINKBASE
  1

  9
$STYLESHEET
  1

  9
$XEDIT
290
     1
  9
$CEPSNTYPE
380
     0
  9
$PSTYLEMODE
290
     1
  9
$FINGERPRINTGUID
  2
{d79ece6c-177b-4b62-96e6-a665231393e1}
  9
$VERSIONGUID
  2
{FAEB1C32-E019-11D5-929B-00C0DF256EC4}
  9
$EXTNAMES
290
     1
  9
$PSVPSCALE
 40
0.0
  9
$OLESTARTUP
290
     0
  0
ENDSEC
  0
SECTION
  2
CLASSES
  0
CLASS
  1
ACDBDICTIONARYWDFLT
  2
AcDbDictionaryWithDefault
  3
ObjectDBX Classes
 90
        0
280
     0
281
     0
  0
CLASS
  1
VISUALSTYLE
  2
AcDbVisualStyle
  3
ObjectDBX Classes
 90
     4095
280
     0
281
     0
  0
CLASS
  1
MATERIAL
  2
AcDbMaterial
  3
ObjectDBX Classes
 90
     1153
280
     0
281
     0
  0
CLASS
  1
SCALE
  2
AcDbScale
  3
ObjectDBX Classes
 90
     1153
280
     0
281
     0
  0
CLASS
  1
TABLESTYLE
  2
AcDbTableStyle
  3
ObjectDBX Classes
 90
     4095
280
     0
281
     0
  0
CLASS
  1
MLEADERSTYLE
  2
AcDbMLeaderStyle
  3
ACDB_MLEADERSTYLE_CLASS
 90
     4095
280
     0
281
     0
  0
CLASS
  1
SUN
  2
AcDbSun
  3
SCENEOE
 90
     1153
280
     0
281
     0
  0
CLASS
  1
ACDBPLACEHOLDER
  2
AcDbPlaceHolder
  3
ObjectDBX Classes
 90
        0
280
     0
281
     0
  0
CLASS
  1
LAYOUT
  2
AcDbLayout
  3
ObjectDBX Classes
 90
        0
280
     0
281
     0
  0
ENDSEC
  0
SECTION
  2
TABLES
  0
TABLE
  2
VPORT
  5
8
330
0
100
AcDbSymbolTable
 70
     1
  0
VPORT
  5
29
330
8
100
AcDbSymbolTableRecord
100
AcDbViewportTableRecord
  2
*Active
 70
     0
 10
0.0
 20
0.0
 11
1.0
 21
1.0
 12
139.7
 22
107.95
 13
0.0
 23
0.0
 14
10.0
 24
10.0
 15
10.0
 25
10.0
 16
0.0
 26
0.0
 36
1.0
 17
0.0
 27
0.0
 37
0.0
 40
215.9
 41
1.2941176471
 42
50.0
 43
0.0
 44
0.0
 50
0.0
 51
0.0
 71
     0
 72
  2000
 73
     1
 74
     3
 75
     0
 76
     0
 77
     0
 78
     0
281
     0
 65
     1
110
0.0
120
0.0
130
0.0
111
1.0
121
0.0
131
0.0
112
0.0
122
1.0
132
0.0
 79
     0
146
0.0
  0
ENDTAB
  0
TABLE
  2
LTYPE
  5
5
330
0
100
AcDbSymbolTable
 70
     6
  0
LTYPE
  5
14
330
5
100
AcDbSymbolTableRecord
100
AcDbLinetypeTableRecord
  2
ByBlock
 70
     0
  3

 72
    65
 73
     0
 40
0.0
  0
LTYPE
  5
15
330
5
100
AcDbSymbolTableRecord
100
AcDbLinetypeTableRecord
  2
ByLayer
 70
     0
  3

 72
    65
 73
     0
 40
0.0
  0
LTYPE
  5
16
330
5
100
AcDbSymbolTableRecord
100
AcDbLinetypeTableRecord
  2
Continuous
 70
     0
  3
Solid line
 72
    65
 73
     0
 40
0.0
  0
LTYPE
  5
6E
330
5
100
AcDbSymbolTableRecord
100
AcDbLinetypeTableRecord
  2
HIDDEN
 70
     0
  3
Hidden __ __ __ __ __ __ __ __ __ __ __ __ __ __
 72
    65
 73
     2
 40
1.905
 49
1.27
 74
     0
 49
-0.635
 74
     0
  0
LTYPE
  5
6F
330
5
100
AcDbSymbolTableRecord
100
AcDbLinetypeTableRecord
  2
PHANTOM
 70
     0
  3
Phantom ______  __  __  ______  __  __  ______
 72
    65
 73
     6
 40
12.7
 49
6.35
 74
     0
 49
-1.27
 74
     0
 49
1.27
 74
     0
 49
-1.27
 74
     0
 49
1.27
 74
     0
 49
-1.27
 74
     0
  0
LTYPE
  5
70
330
5
100
AcDbSymbolTableRecord
100
AcDbLinetypeTableRecord
  2
CENTER
 70
     0
  3
Center ____ _ ____ _ ____ _ ____ _ ____ _ ____
 72
    65
 73
     4
 40
10.16
 49
6.35
 74
     0
 49
-1.27
 74
     0
 49
1.27
 74
     0
 49
-1.27
 74
     0
  0
LTYPE
  5
71
330
5
100
AcDbSymbolTableRecord
100
AcDbLinetypeTableRecord
  2
CENTERX2
 70
     0
  3
Center (2x) ________  __  ________  __  _____
 72
    65
 73
     4
 40
20.32
 49
12.7
 74
     0
 49
-2.54
 74
     0
 49
2.54
 74
     0
 49
-2.54
 74
     0
  0
LTYPE
  5
72
330
5
100
AcDbSymbolTableRecord
100
AcDbLinetypeTableRecord
  2
DOT2
 70
     0
  3
Dot (.5x) ........................................
 72
    65
 73
     2
 40
0.635
 49
0.0
 74
     0
 49
-0.635
 74
     0
  0
ENDTAB
  0
TABLE
  2
LAYER
  5
2
330
0
100
AcDbSymbolTable
 70
    17
  0
LAYER
  5
10
330
2
100
AcDbSymbolTableRecord
100
AcDbLayerTableRecord
  2
0
 70
     0
 62
     7
  6
Continuous
370
    -3
390
F
  0
LAYER
  5
73
330
2
100
AcDbSymbolTableRecord
100
AcDbLayerTableRecord
  2
FORMAT
 70
     0
 62
     7
  6
Continuous
370
    -3
390
F
  0
LAYER
  5
74
330
2
100
AcDbSymbolTableRecord
100
AcDbLayerTableRecord
  2
YARDIMCI_GEOMETRI
 70
     0
 62
    -6
  6
Continuous
290
     0
370
    -3
390
F
  0
LAYER
  5
75
330
2
100
AcDbSymbolTableRecord
100
AcDbLayerTableRecord
  2
SAYFA_CERCEVESI
 70
     0
 62
     7
  6
Continuous
370
    25
390
F
  0
LAYER
  5
76
330
2
100
AcDbSymbolTableRecord
100
AcDbLayerTableRecord
  2
ANTET
 70
     0
 62
     7
  6
Continuous
370
    -3
390
F
  0
LAYER
  5
77
330
2
100
AcDbSymbolTableRecord
100
AcDbLayerTableRecord
  2
OLCU
 70
     0
 62
   150
  6
Continuous
370
    -3
390
F
  0
LAYER
  5
78
330
2
100
AcDbSymbolTableRecord
100
AcDbLayerTableRecord
  2
METIN
 70
     0
 62
    96
  6
Continuous
370
    -3
390
F
  0
LAYER
  5
79
330
2
100
AcDbSymbolTableRecord
100
AcDbLayerTableRecord
  2
BALON
 70
     0
 62
     5
  6
Continuous
370
    -3
390
F
  0
LAYER
  5
7A
330
2
100
AcDbSymbolTableRecord
100
AcDbLayerTableRecord
  2
VURGU
 70
     0
 62
     7
  6
Continuous
370
    -3
390
F
  0
LAYER
  5
7B
330
2
100
AcDbSymbolTableRecord
100
AcDbLayerTableRecord
  2
SILIK
 70
     0
 62
     7
  6
Continuous
370
    -3
390
F
  0
LAYER
  5
7C
330
2
100
AcDbSymbolTableRecord
100
AcDbLayerTableRecord
  2
MODEL
 70
     0
 62
     7
  6
Continuous
370
    -3
390
F
  0
LAYER
  5
7D
330
2
100
AcDbSymbolTableRecord
100
AcDbLayerTableRecord
  2
DETAYLANDıRMA
 70
     0
 62
   190
  6
Continuous
370
    -3
390
F
  0
LAYER
  5
7E
330
2
100
AcDbSymbolTableRecord
100
AcDbLayerTableRecord
  2
TOLERANS
 70
     0
 62
   230
  6
Continuous
370
    -3
390
F
  0
LAYER
  5
7F
330
2
100
AcDbSymbolTableRecord
100
AcDbLayerTableRecord
  2
MERKEZ_CIZGILERI
 70
     0
 62
    30
  6
Continuous
370
    -3
390
F
  0
LAYER
  5
80
330
2
100
AcDbSymbolTableRecord
100
AcDbLayerTableRecord
  2
KESIT-DETAY_CIZGILERI
 70
     0
 62
     7
  6
Continuous
370
    -3
390
F
  0
LAYER
  5
81
330
2
100
AcDbSymbolTableRecord
100
AcDbLayerTableRecord
  2
\U+041E\U+0421\U+0415\U+0412\U+042B\U+0415
 70
     0
 62
     7
  6
Continuous
370
    -3
390
F
  0
LAYER
  5
82
330
2
100
AcDbSymbolTableRecord
100
AcDbLayerTableRecord
  2
\U+0412\U+041E\U+0414\U+042F\U+041D\U+042B\U+0415_\U+0417\U+041D\U+0410\U+041A\U+0418
 70
     0
 62
    11
  6
Continuous
370
    -3
390
F
  0
ENDTAB
  0
TABLE
  2
STYLE
  5
3
330
0
100
AcDbSymbolTable
 70
     1
  0
STYLE
  5
11
330
3
100
AcDbSymbolTableRecord
100
AcDbTextStyleTableRecord
  2
Standard
 70
     0
 40
0.0
 41
1.0
 50
0.0
 71
     0
 42
3.5
  3
txt
  4

  0
ENDTAB
  0
TABLE
  2
VIEW
  5
6
330
0
100
AcDbSymbolTable
 70
     0
  0
ENDTAB
  0
TABLE
  2
UCS
  5
7
330
0
100
AcDbSymbolTable
 70
     0
  0
ENDTAB
  0
TABLE
  2
APPID
  5
9
330
0
100
AcDbSymbolTable
 70
     1
  0
APPID
  5
12
330
9
100
AcDbSymbolTableRecord
100
AcDbRegAppTableRecord
  2
ACAD
 70
     0
  0
ENDTAB
  0
TABLE
  2
DIMSTYLE
  5
A
330
0
100
AcDbSymbolTable
 70
     1
100
AcDbDimStyleTable
  0
DIMSTYLE
105
27
330
A
100
AcDbSymbolTableRecord
100
AcDbDimStyleTableRecord
  2
ISO-25
 70
     0
 41
2.5
 42
0.625
 43
3.75
 44
1.25
 73
     0
 74
     0
 77
     1
 78
     8
140
2.5
141
2.5
143
0.0393700787
147
0.625
171
     3
172
     1
178
     0
271
     2
272
     2
274
     3
278
    44
283
     0
284
     8
340
11
  0
ENDTAB
  0
TABLE
  2
BLOCK_RECORD
  5
1
330
0
100
AcDbSymbolTable
 70
     3
  0
BLOCK_RECORD
  5
1F
330
1
100
AcDbSymbolTableRecord
100
AcDbBlockTableRecord
  2
*Model_Space
340
22
  0
BLOCK_RECORD
  5
1B
330
1
100
AcDbSymbolTableRecord
100
AcDbBlockTableRecord
  2
*Paper_Space
340
1E
  0
BLOCK_RECORD
  5
23
330
1
100
AcDbSymbolTableRecord
100
AcDbBlockTableRecord
  2
*Paper_Space0
340
26
  0
BLOCK_RECORD
  5
88
330
1
100
AcDbSymbolTableRecord
100
AcDbBlockTableRecord
  2
SW_CENTERMARKSYMBOL_0
340
0
102
{BLKREFS
331
93
102
}
  0
BLOCK_RECORD
  5
B2
330
1
100
AcDbSymbolTableRecord
100
AcDbBlockTableRecord
  2
SW_CENTERMARKSYMBOL_1
340
0
102
{BLKREFS
331
BD
102
}
  0
ENDTAB
  0
ENDSEC
  0
SECTION
  2
BLOCKS
  0
BLOCK
  5
20
330
1F
100
AcDbEntity
  8
0
100
AcDbBlockBegin
  2
*Model_Space
 70
     0
 10
0.0
 20
0.0
 30
0.0
  3
*Model_Space
  1

  0
ENDBLK
  5
21
330
1F
100
AcDbEntity
  8
0
100
AcDbBlockEnd
  0
BLOCK
  5
1C
330
1B
100
AcDbEntity
 67
     1
  8
0
100
AcDbBlockBegin
  2
*Paper_Space
 70
     0
 10
0.0
 20
0.0
 30
0.0
  3
*Paper_Space
  1

  0
ENDBLK
  5
1D
330
1B
100
AcDbEntity
 67
     1
  8
0
100
AcDbBlockEnd
  0
BLOCK
  5
24
330
23
100
AcDbEntity
  8
0
100
AcDbBlockBegin
  2
*Paper_Space0
 70
     0
 10
0.0
 20
0.0
 30
0.0
  3
*Paper_Space0
  1

  0
ENDBLK
  5
25
330
23
100
AcDbEntity
  8
0
100
AcDbBlockEnd
  0
BLOCK
  5
89
330
88
100
AcDbEntity
  8
0
100
AcDbBlockBegin
  2
SW_CENTERMARKSYMBOL_0
 70
     0
 10
0.0
 20
0.0
 30
0.0
  3
SW_CENTERMARKSYMBOL_0
  1

  0
LINE
  5
8B
330
88
100
AcDbEntity
  8
FORMAT
 62
     0
100
AcDbLine
 10
0.0
 20
0.0
 30
0.0
 11
0.0
 21
2.5
 31
0.0
  0
LINE
  5
8C
330
88
100
AcDbEntity
  8
FORMAT
 62
     0
100
AcDbLine
 10
0.0
 20
0.0
 30
0.0
 11
-2.5
 21
0.0
 31
0.0
  0
LINE
  5
8D
330
88
100
AcDbEntity
  8
FORMAT
 62
     0
100
AcDbLine
 10
0.0
 20
0.0
 30
0.0
 11
0.0
 21
-2.5
 31
0.0
  0
LINE
  5
8E
330
88
100
AcDbEntity
  8
FORMAT
 62
     0
100
AcDbLine
 10
0.0
 20
0.0
 30
0.0
 11
2.5
 21
0.0
 31
0.0
  0
LINE
  5
8F
330
88
100
AcDbEntity
  8
FORMAT
 62
     0
100
AcDbLine
 10
0.0
 20
5.0
 30
0.0
 11
0.0
 21
202.5
 31
0.0
  0
LINE
  5
90
330
88
100
AcDbEntity
  8
FORMAT
 62
     0
100
AcDbLine
 10
-5.0
 20
0.0
 30
0.0
 11
-202.5
 21
0.0
 31
0.0
  0
LINE
  5
91
330
88
100
AcDbEntity
  8
FORMAT
 62
     0
100
AcDbLine
 10
0.0
 20
-5.0
 30
0.0
 11
0.0
 21
-202.5
 31
0.0
  0
LINE
  5
92
330
88
100
AcDbEntity
  8
FORMAT
 62
     0
100
AcDbLine
 10
5.0
 20
0.0
 30
0.0
 11
202.5
 21
0.0
 31
0.0
  0
ENDBLK
  5
8A
330
88
100
AcDbEntity
  8
0
100
AcDbBlockEnd
  0
BLOCK
  5
B3
330
B2
100
AcDbEntity
  8
0
100
AcDbBlockBegin
  2
SW_CENTERMARKSYMBOL_1
 70
     0
 10
0.0
 20
0.0
 30
0.0
  3
SW_CENTERMARKSYMBOL_1
  1

  0
LINE
  5
B5
330
B2
100
AcDbEntity
  8
FORMAT
 62
     0
100
AcDbLine
 10
0.0
 20
0.0
 30
0.0
 11
0.0
 21
2.5
 31
0.0
  0
LINE
  5
B6
330
B2
100
AcDbEntity
  8
FORMAT
 62
     0
100
AcDbLine
 10
0.0
 20
0.0
 30
0.0
 11
-2.5
 21
0.0
 31
0.0
  0
LINE
  5
B7
330
B2
100
AcDbEntity
  8
FORMAT
 62
     0
100
AcDbLine
 10
0.0
 20
0.0
 30
0.0
 11
0.0
 21
-2.5
 31
0.0
  0
LINE
  5
B8
330
B2
100
AcDbEntity
  8
FORMAT
 62
     0
100
AcDbLine
 10
0.0
 20
0.0
 30
0.0
 11
2.5
 21
0.0
 31
0.0
  0
LINE
  5
B9
330
B2
100
AcDbEntity
  8
FORMAT
 62
     0
100
AcDbLine
 10
0.0
 20
5.0
 30
0.0
 11
0.0
 21
82.5
 31
0.0
  0
LINE
  5
BA
330
B2
100
AcDbEntity
  8
FORMAT
 62
     0
100
AcDbLine
 10
-5.0
 20
0.0
 30
0.0
 11
-82.5
 21
0.0
 31
0.0
  0
LINE
  5
BB
330
B2
100
AcDbEntity
  8
FORMAT
 62
     0
100
AcDbLine
 10
0.0
 20
-5.0
 30
0.0
 11
0.0
 21
-82.5
 31
0.0
  0
LINE
  5
BC
330
B2
100
AcDbEntity
  8
FORMAT
 62
     0
100
AcDbLine
 10
5.0
 20
0.0
 30
0.0
 11
82.5
 21
0.0
 31
0.0
  0
ENDBLK
  5
B4
330
B2
100
AcDbEntity
  8
0
100
AcDbBlockEnd
  0
ENDSEC
  0
SECTION
  2
ENTITIES
  0
LINE
  5
83
330
1F
100
AcDbEntity
  8
0
  6
Continuous
 62
     7
370
    25
100
AcDbLine
 10
75.2986538529
 20
22.4827238164
 30
0.0
 11
236.9477587346
 21
22.4827238164
 31
0.0
  0
LINE
  5
84
330
1F
100
AcDbEntity
  8
0
  6
Continuous
 62
     7
370
    25
100
AcDbLine
 10
236.9477587346
 20
182.4827238164
 30
0.0
 11
75.2613075098
 21
182.4827238164
 31
0.0
  0
CIRCLE
  5
85
330
1F
100
AcDbEntity
  8
0
  6
Continuous
 62
     7
370
    25
100
AcDbCircle
 10
-108.0522412654
 20
102.4827238164
 30
0.0
 40
163.7
  0
CIRCLE
  5
86
330
1F
100
AcDbEntity
  8
0
  6
Continuous
 62
     7
370
    25
100
AcDbCircle
 10
-108.0522412654
 20
102.4827238164
 30
0.0
 40
200.0
  0
LINE
  5
87
330
1F
100
AcDbEntity
  8
0
  6
Continuous
 62
     7
370
    25
100
AcDbLine
 10
236.9477587346
 20
182.4827238164
 30
0.0
 11
236.9477587346
 21
22.4827238164
 31
0.0
  0
INSERT
  5
93
330
1F
100
AcDbEntity
  8
FORMAT
100
AcDbBlockReference
  2
SW_CENTERMARKSYMBOL_0
 10
-108.0522412654
 20
102.4827238164
 30
0.0
  0
LINE
  5
94
330
1F
100
AcDbEntity
  8
0
  6
Continuous
 62
     7
370
    25
100
AcDbLine
 10
-308.0522412654
 20
-498.1377875545
 30
0.0
 11
-308.0522412654
 21
-1115.1377875545
 31
0.0
  0
LINE
  5
95
330
1F
100
AcDbEntity
  8
0
  6
Continuous
 62
     7
370
    25
100
AcDbLine
 10
91.9477587346
 20
-726.6892455529
 30
0.0
 11
91.9477587346
 21
-498.1377875545
 31
0.0
  0
LINE
  5
96
330
1F
100
AcDbEntity
  8
0
  6
Continuous
 62
     7
370
    25
100
AcDbLine
 10
91.9477587346
 20
-1115.1377875545
 30
0.0
 11
91.9477587346
 21
-886.6377875545
 31
0.0
  0
LINE
  5
97
330
1F
100
AcDbEntity
  8
0
  6
Continuous
 62
     7
370
    25
100
AcDbLine
 10
91.9477587346
 20
-886.6377875545
 30
0.0
 11
236.9477587346
 21
-886.6377875545
 31
0.0
  0
LINE
  5
98
330
1F
100
AcDbEntity
  8
0
  6
Continuous
 62
     7
370
    25
100
AcDbLine
 10
236.9477587346
 20
-726.6377875545
 30
0.0
 11
91.9271955171
 21
-726.6377875545
 31
0.0
  0
LWPOLYLINE
  5
99
330
1F
100
AcDbEntity
  8
0
  6
Continuous
 62
     7
370
    25
100
AcDbPolyline
 90
       41
 70
   128
 43
0.0
 10
91.9271883094
 20
-726.6892455529
 10
91.8869150153
 20
-726.7900185546
 10
91.6110981506
 20
-727.4831976261
 10
91.1651638642
 20
-728.6148774153
 10
90.5419319784
 20
-730.220213356
 10
89.7471750697
 20
-732.3100733254
 10
88.8007828805
 20
-734.8665320592
 10
87.7253772614
 20
-737.8709647688
 10
86.5424291371
 20
-741.3148532278
 10
85.2741034889
 20
-745.1961438911
 10
83.9445707121
 20
-749.5170749406
 10
82.5596801474
 20
-754.3605976465
 10
81.1791511168
 20
-759.6428956734
 10
79.8519943084
 20
-765.3098097841
 10
78.6106702217
 20
-771.3809793489
 10
77.5434507799
 20
-777.555818815
 10
76.6419793283
 20
-784.0113622796
 10
75.9316551502
 20
-790.8240549063
 10
75.4617234941
 20
-797.8414666321
 10
75.2671425545
 20
-804.1890155925
 10
75.293678125
 20
-810.6034094606
 10
75.546955826
 20
-817.0620464058
 10
76.028404417
 20
-823.5399801594
 10
76.6642872452
 20
-829.4455911532
 10
77.4685558648
 20
-835.2378953832
 10
78.42827996
 20
-840.9158387901
 10
79.5150552441
 20
-846.4057485265
 10
80.7327684348
 20
-851.8017099651
 10
82.0254793979
 20
-856.9323189925
 10
83.3653228245
 20
-861.7801836043
 10
84.7235012905
 20
-866.324359897
 10
86.087076835
 20
-870.5914804307
 10
87.3880774378
 20
-874.4383640624
 10
88.6068635186
 20
-877.8754425865
 10
89.6858909586
 20
-880.802259746
 10
90.5366330812
 20
-883.0415899092
 10
91.2112497106
 20
-884.7782945655
 10
91.6780370557
 20
-885.961075927
 10
91.918621273
 20
-886.5649160176
 10
91.9477587346
 20
-886.6377875545
 10
91.9477587346
 20
-886.6377875545
  0
LINE
  5
9A
330
1F
100
AcDbEntity
  8
0
  6
Continuous
 62
     7
370
    25
100
AcDbLine
 10
91.9477587346
 20
-1115.1377875545
 30
0.0
 11
-308.0522412654
 21
-1115.1377875545
 31
0.0
  0
LINE
  5
9B
330
1F
100
AcDbEntity
  8
0
  6
Continuous
 62
     7
370
    25
100
AcDbLine
 10
91.9477587346
 20
-498.1377875545
 30
0.0
 11
-308.0522412654
 21
-498.1377875545
 31
0.0
  0
LINE
  5
9C
330
1F
100
AcDbEntity
  8
0
  6
Continuous
 62
     7
370
    25
100
AcDbLine
 10
236.9477587346
 20
-726.6377875545
 30
0.0
 11
236.9477587346
 21
-886.6377875545
 31
0.0
  0
LINE
  5
9D
330
1F
100
AcDbEntity
  8
0
  6
Continuous
 62
     7
370
    25
100
AcDbLine
 10
91.9477587346
 20
1048.8970276467
 30
0.0
 11
91.9477587346
 21
1277.3970276467
 31
0.0
  0
LINE
  5
9E
330
1F
100
AcDbEntity
  8
0
  6
Continuous
 62
     7
370
    25
100
AcDbLine
 10
91.9477587346
 20
660.3970276467
 30
0.0
 11
91.9477587346
 21
888.9500863269
 31
0.0
  0
LINE
  5
9F
330
1F
100
AcDbEntity
  8
0
  6
Continuous
 62
     7
370
    25
100
AcDbLine
 10
-308.0522412654
 20
1277.3970276467
 30
0.0
 11
-308.0522412654
 21
660.3970276467
 31
0.0
  0
LINE
  5
A0
330
1F
100
AcDbEntity
  8
0
  6
Continuous
 62
     7
370
    25
100
AcDbLine
 10
91.9265555759
 20
888.8970276467
 30
0.0
 11
236.9477587346
 21
888.8970276467
 31
0.0
  0
LINE
  5
A1
330
1F
100
AcDbEntity
  8
0
  6
Continuous
 62
     7
370
    25
100
AcDbLine
 10
236.9477587346
 20
1048.8970276467
 30
0.0
 11
91.9477587346
 21
1048.8970276467
 31
0.0
  0
SPLINE
  5
A2
330
1F
100
AcDbEntity
  8
0
  6
Continuous
 62
     7
370
    25
100
AcDbSpline
210
0.0
220
0.0
230
1.0
 70
     8
 71
     3
 72
    46
 73
    42
 74
     0
 42
0.00000001
 43
0.00000001
 40
0.0
 40
0.0
 40
0.0
 40
0.0
 40
0.0249751588552362
 40
0.0501339160776294
 40
0.0758649542190908
 40
0.1017896390015389
 40
0.1267628937056681
 40
0.151901893325641
 40
0.1775457953117301
 40
0.203357160138048
 40
0.2294100985747609
 40
0.2556302256766881
 40
0.2823717418079825
 40
0.3092932527110577
 40
0.3364295388914505
 40
0.3637633991145295
 40
0.3917449310757479
 40
0.4199630340275738
 40
0.4458265824233348
 40
0.4718926031374586
 40
0.498613890036956
 40
0.5255670642293153
 40
0.5497000133823413
 40
0.5739994970151651
 40
0.598809303602288
 40
0.6237885425511998
 40
0.6484629811856416
 40
0.6732908618730042
 40
0.6985847443481205
 40
0.7240336103066389
 40
0.7505838359034144
 40
0.7773094371561919
 40
0.804591284361397
 40
0.8320691588437173
 40
0.859066227484674
 40
0.8862664242577253
 40
0.9141319887003867
 40
0.9422386947067942
 40
0.9676371243558906
 40
0.9932273002346717
 40
1.0
 40
1.0
 40
1.0
 40
1.0
 10
91.94775873459675
 20
1048.897027646745
 30
0.0
 10
91.92833562380041
 20
1048.848533863797
 30
0.0
 10
91.88934661827388
 20
1048.751189808502
 30
0.0
 10
91.57331963512107
 20
1047.958122085952
 30
0.0
 10
91.06846397689051
 20
1046.676981646538
 30
0.0
 10
90.37222188861453
 20
1044.88019826048
 30
0.0
 10
89.51628814182217
 20
1042.619819836482
 30
0.0
 10
88.52099609143522
 20
1039.914849998677
 30
0.0
 10
87.39337009334193
 20
1036.738021741135
 30
0.0
 10
86.15572624232044
 20
1033.09329743104
 30
0.0
 10
84.84132255156628
 20
1029.009264934089
 30
0.0
 10
83.4752581687312
 20
1024.481514405596
 30
0.0
 10
82.09235049229869
 20
1019.525622192366
 30
0.0
 10
80.7292131457554
 20
1014.153487238935
 30
0.0
 10
79.43087173916473
 20
1008.407690927227
 30
0.0
 10
78.23137937565224
 20
1002.279939071749
 30
0.0
 10
77.17462678667835
 20
995.7951452009329
 30
0.0
 10
76.33187753700878
 20
989.1939853279671
 30
0.0
 10
75.72283653082016
 20
982.5806117823035
 30
0.0
 10
75.34708449932913
 20
975.9807685279093
 30
0.0
 10
75.20867693738802
 20
969.2295085516437
 30
0.0
 10
75.31953707539941
 20
962.6387049414855
 30
0.0
 10
75.64961645420897
 20
956.3037689209144
 30
0.0
 10
76.16544494061898
 20
950.2365563444336
 30
0.0
 10
76.87148462257939
 20
944.2297442640106
 30
0.0
 10
77.74733160181009
 20
938.3639105008114
 30
0.0
 10
78.76383950235085
 20
932.7022205323577
 30
0.0
 10
79.89770484708676
 20
927.2526893223878
 30
0.0
 10
81.12912290355
 20
922.01621858731
 30
0.0
 10
82.44519377518857
 20
916.9664809494345
 30
0.0
 10
83.8108155797118
 20
912.1688104806823
 30
0.0
 10
85.19788074478028
 20
907.649608635119
 30
0.0
 10
86.55340392154346
 20
903.5062303252467
 30
0.0
 10
87.82820736087167
 20
899.8129988924738
 30
0.0
 10
88.9819318067749
 20
896.6132954670171
 30
0.0
 10
89.99015237598245
 20
893.9138175827246
 30
0.0
 10
90.82541930000421
 20
891.7391149048818
 30
0.0
 10
91.4382594652617
 20
890.1769315105469
 30
0.0
 10
91.80386451113844
 20
889.2566685858461
 30
0.0
 10
91.96325351636754
 20
888.8582626894837
 30
0.0
 10
91.93290047282144
 20
888.9341955696443
 30
0.0
 10
91.92654837812007
 20
888.9500863268596
 30
0.0
  0
LINE
  5
A3
330
1F
100
AcDbEntity
  8
0
  6
Continuous
 62
     7
370
    25
100
AcDbLine
 10
-308.0522412654
 20
1277.3970276467
 30
0.0
 11
91.9477587346
 21
1277.3970276467
 31
0.0
  0
LINE
  5
A4
330
1F
100
AcDbEntity
  8
0
  6
Continuous
 62
     7
370
    25
100
AcDbLine
 10
-308.0522412654
 20
660.3970276467
 30
0.0
 11
91.9477587346
 21
660.3970276467
 31
0.0
  0
LINE
  5
A5
330
1F
100
AcDbEntity
  8
0
  6
Continuous
 62
     7
370
    25
100
AcDbLine
 10
236.9477587346
 20
1048.8970276467
 30
0.0
 11
236.9477587346
 21
888.8970276467
 31
0.0
  0
LINE
  5
A6
330
1F
100
AcDbEntity
  8
0
  6
Continuous
 62
     7
370
    25
100
AcDbLine
 10
1288.7413965395
 20
-97.5172761836
 30
0.0
 11
1905.7413965395
 21
-97.5172761836
 31
0.0
  0
LINE
  5
A7
330
1F
100
AcDbEntity
  8
0
  6
Continuous
 62
     7
370
    25
100
AcDbLine
 10
1905.7413965395
 20
302.4827238164
 30
0.0
 11
1288.7413965395
 21
302.4827238164
 31
0.0
  0
LINE
  5
A8
330
1F
100
AcDbEntity
  8
0
  6
Continuous
 62
     7
370
    25
100
AcDbLine
 10
1905.7413965395
 20
302.4827238164
 30
0.0
 11
1905.7413965395
 21
-97.5172761836
 31
0.0
  0
LINE
  5
A9
330
1F
100
AcDbEntity
  8
0
  6
Continuous
 62
     7
370
    25
100
AcDbLine
 10
1288.7413965395
 20
302.4827238164
 30
0.0
 11
1288.7413965395
 21
-97.5172761836
 31
0.0
  0
LINE
  5
AA
330
1F
100
AcDbEntity
  8
0
  6
Continuous
 62
     7
370
    25
100
AcDbLine
 10
-830.2169892178
 20
302.4827238164
 30
0.0
 11
-1447.2169892178
 21
302.4827238164
 31
0.0
  0
LINE
  5
AB
330
1F
100
AcDbEntity
  8
0
  6
Continuous
 62
     7
370
    25
100
AcDbLine
 10
-1447.2169892178
 20
-97.5172761836
 30
0.0
 11
-830.2169892178
 21
-97.5172761836
 31
0.0
  0
CIRCLE
  5
AC
330
1F
100
AcDbEntity
  8
0
  6
Continuous
 62
     7
370
    25
100
AcDbCircle
 10
-1138.7169892178
 20
102.4827238164
 30
0.0
 40
65.39999999999986
  0
CIRCLE
  5
AD
330
1F
100
AcDbEntity
  8
0
  6
Continuous
 62
     7
370
    25
100
AcDbCircle
 10
-1138.7169892178
 20
102.4827238164
 30
0.0
 40
80.0
  0
LINE
  5
AE
330
1F
100
AcDbEntity
  8
0
  6
Continuous
 62
     7
370
    25
100
AcDbLine
 10
-1447.2169892178
 20
102.4827238164
 30
0.0
 11
-1447.2169892178
 21
302.4827238164
 31
0.0
  0
LINE
  5
AF
330
1F
100
AcDbEntity
  8
0
  6
Continuous
 62
     7
370
    25
100
AcDbLine
 10
-1447.2169892178
 20
-97.5172761836
 30
0.0
 11
-1447.2169892178
 21
102.4827238164
 31
0.0
  0
LINE
  5
B0
330
1F
100
AcDbEntity
  8
0
  6
Continuous
 62
     7
370
    25
100
AcDbLine
 10
-830.2169892178
 20
102.4827238164
 30
0.0
 11
-830.2169892178
 21
302.4827238164
 31
0.0
  0
LINE
  5
B1
330
1F
100
AcDbEntity
  8
0
  6
Continuous
 62
     7
370
    25
100
AcDbLine
 10
-830.2169892178
 20
-97.5172761836
 30
0.0
 11
-830.2169892178
 21
102.4827238164
 31
0.0
  0
INSERT
  5
BD
330
1F
100
AcDbEntity
  8
FORMAT
100
AcDbBlockReference
  2
SW_CENTERMARKSYMBOL_1
 10
-1138.7169892178
 20
102.4827238164
 30
0.0
  0
LINE
  5
BE
330
1F
100
AcDbEntity
  8
0
  6
Continuous
 62
     7
370
    25
100
AcDbLine
 10
1692.2735634278
 20
-839.9170167875
 30
0.0
 11
1654.1620048795
 21
-817.9156823491
 31
0.0
  0
LINE
  5
BF
330
1F
100
AcDbEntity
  8
0
  6
Continuous
 62
     7
370
    25
100
AcDbLine
 10
1494.1490010445
 20
-725.5421414613
 30
0.0
 11
1255.9886794357
 21
-588.0551142902
 31
0.0
  0
LINE
  5
C0
330
1F
100
AcDbEntity
  8
0
  6
Continuous
 62
     7
370
    25
100
AcDbLine
 10
1056.0049329085
 20
-934.4746592425
 30
0.0
 11
1492.2898169006
 21
-1186.3365617398
 31
0.0
  0
LINE
  5
C1
330
1F
100
AcDbEntity
  8
0
  6
Continuous
 62
     7
370
    25
100
AcDbLine
 10
1549.7816631014
 20
-878.1731710409
 30
0.0
 11
1658.087836983
 21
-815.6493477161
 31
0.0
  0
LINE
  5
C2
330
1F
100
AcDbEntity
  8
0
  6
Continuous
 62
     7
370
    25
100
AcDbLine
 10
1578.0943383721
 20
-677.0815297351
 30
0.0
 11
1469.7870241395
 21
-739.6060113706
 31
0.0
  0
SPLINE
  5
C3
330
1F
100
AcDbEntity
  8
0
  6
Continuous
 62
     7
370
    25
100
AcDbSpline
210
0.0
220
0.0
230
1.0
 70
     8
 71
     3
 72
    34
 73
    30
 74
     0
 42
0.00000001
 43
0.00000001
 40
0.0
 40
0.0
 40
0.0
 40
0.0
 40
0.0334256829634671
 40
0.0845478158566345
 40
0.1356750547942544
 40
0.1690836777949368
 40
0.2200687085183936
 40
0.2710597908565185
 40
0.3060237659018482
 40
0.3409882307813629
 40
0.3764100888123825
 40
0.4123046400769864
 40
0.4484855520228239
 40
0.4849298901793703
 40
0.5222377714888615
 40
0.5598610737857056
 40
0.5944890350437955
 40
0.6293904079081538
 40
0.6647265740341701
 40
0.7006633420809043
 40
0.7329525997094646
 40
0.7656918155961694
 40
0.7984323215655383
 40
0.8316221796070942
 40
0.8646238631825446
 40
0.8980379956507216
 40
0.9314531868324819
 40
0.9652791700242435
 40
0.9999999999999999
 40
0.9999999999999999
 40
0.9999999999999999
 40
0.9999999999999999
 10
1458.992061910576
 20
-772.8987023598382
 30
0.0
 10
1459.013330741064
 20
-774.6606842630886
 30
0.0
 10
1459.067128689352
 20
-779.1174883816923
 30
0.0
 10
1459.60266726748
 20
-786.8116476567076
 30
0.0
 10
1460.555821862156
 20
-794.8434660306865
 30
0.0
 10
1461.885037488587
 20
-803.0649976499201
 30
0.0
 10
1463.584591312106
 20
-811.3958422586204
 30
0.0
 10
1465.763113302271
 20
-819.8212163433909
 30
0.0
 10
1468.038969039376
 20
-827.1576173592513
 30
0.0
 10
1470.276057468343
 20
-833.4336010706103
 30
0.0
 10
1472.798091178859
 20
-839.5998913265954
 30
0.0
 10
1475.626742020953
 20
-845.6202601117825
 30
0.0
 10
1478.771571726378
 20
-851.4271070049424
 30
0.0
 10
1482.256376062987
 20
-856.9812825534555
 30
0.0
 10
1486.094582129659
 20
-862.2162105133029
 30
0.0
 10
1490.171748407795
 20
-866.9184546221096
 30
0.0
 10
1494.429582842228
 20
-871.0442794491455
 30
0.0
 10
1498.832141149038
 20
-874.5966694624426
 30
0.0
 10
1503.502483778221
 20
-877.661003293634
 30
0.0
 10
1508.233147664179
 20
-880.0949644600903
 30
0.0
 10
1512.967400527957
 20
-881.9326523160038
 30
0.0
 10
1517.628743145586
 20
-883.2097962961735
 30
0.0
 10
1522.36973153823
 20
-883.9914814080097
 30
0.0
 10
1527.120052517378
 20
-884.2654165422183
 30
0.0
 10
1531.856133716918
 20
-884.0383279516125
 30
0.0
 10
1536.516449608873
 20
-883.3210294172962
 30
0.0
 10
1541.080033974473
 20
-882.1100341492472
 30
0.0
 10
1545.548693198947
 20
-880.4453704851744
 30
0.0
 10
1548.356814370161
 20
-878.9341509159465
 30
0.0
 10
1549.779204314078
 20
-878.1686769968168
 30
0.0
  0
SPLINE
  5
C4
330
1F
100
AcDbEntity
  8
0
  6
Continuous
 62
     7
370
    25
100
AcDbSpline
210
0.0
220
0.0
230
1.0
 70
     8
 71
     3
 72
    17
 73
    13
 74
     0
 42
0.00000001
 43
0.00000001
 40
0.0
 40
0.0
 40
0.0
 40
0.0
 40
0.0731588238163593
 40
0.1813701315596635
 40
0.2903390657426176
 40
0.4017591923913242
 40
0.5140612342490093
 40
0.6199192222024378
 40
0.7274786207824274
 40
0.8359216588912037
 40
0.9462022896900878
 40
1.0
 40
1.0
 40
1.0
 40
1.0
 10
1469.815684115375
 20
-739.6546140271244
 30
0.0
 10
1469.282569577677
 20
-739.9654125772541
 30
0.0
 10
1467.960910086795
 20
-740.7359221478711
 30
0.0
 10
1466.151782586086
 20
-742.5295431957198
 30
0.0
 10
1464.335127187613
 20
-744.9985671655196
 30
0.0
 10
1462.776792493791
 20
-748.0364709186292
 30
0.0
 10
1461.49841623938
 20
-751.5575764161614
 30
0.0
 10
1460.491941883578
 20
-755.5246199680855
 30
0.0
 10
1459.74222976991
 20
-759.895541087165
 30
0.0
 10
1459.237124229703
 20
-764.7690729814781
 30
0.0
 10
1459.017374601614
 20
-769.1685902979939
 30
0.0
 10
1458.998312091864
 20
-771.9776672721363
 30
0.0
 10
1458.992061910576
 20
-772.8987023598382
 30
0.0
  0
LWPOLYLINE
  5
C5
330
1F
100
AcDbEntity
  8
0
  6
Continuous
 62
     7
370
    25
100
AcDbPolyline
 90
      151
 70
   128
 43
0.0
 10
1297.4181624095
 20
-679.6240755841
 10
1297.2941118524
 20
-672.8570523875
 10
1296.922177808
 20
-666.2451265736
 10
1296.303012775
 20
-659.799897707
 10
1295.4377029793
 20
-653.5326729093
 10
1294.3277664682
 20
-647.4544470223
 10
1292.9751504476
 20
-641.5758833197
 10
1291.3822278655
 20
-635.9072947997
 10
1289.5517932496
 20
-630.4586260928
 10
1287.487057804
 20
-625.2394360154
 10
1285.1916437764
 20
-620.2588808004
 10
1282.6695781029
 20
-615.525698034
 10
1279.9252853438
 20
-611.0481913271
 10
1276.963579921
 20
-606.8342157481
 10
1273.7896576722
 20
-602.8911640419
 10
1270.4090867357
 20
-599.2259536611
 10
1266.8277977815
 20
-595.8450146301
 10
1263.0520736073
 20
-592.754278265
 10
1259.0885381165
 20
-589.9591667674
 10
1254.9441446971
 20
-587.4645837128
 10
1250.6261640233
 20
-585.2749054475
 10
1246.1421713006
 20
-583.3939734113
 10
1241.5000329759
 20
-581.825087398
 10
1236.7078929371
 20
-580.5709997668
 10
1231.7741582264
 20
-579.6339106136
 10
1226.7074842908
 20
-579.0154639113
 10
1221.5167597982
 20
-578.7167446253
 10
1216.211091043
 20
-578.738276811
 10
1210.7997859713
 20
-579.0800226935
 10
1205.2923378508
 20
-579.7413827344
 10
1199.698408617
 20
-580.7211966835
 10
1194.0278119226
 20
-582.0177456142
 10
1188.2904959212
 20
-583.628754939
 10
1182.4965258144
 20
-585.5513984002
 10
1176.6560661947
 20
-587.7823030278
 10
1170.7793632129
 20
-590.3175550571
 10
1164.8767266028
 20
-593.1527067945
 10
1158.9585115949
 20
-596.2827844205
 10
1153.0351007493
 20
-599.7022967153
 10
1147.1168857415
 20
-603.4052446924
 10
1141.2142491314
 20
-607.3851321227
 10
1135.3375461496
 20
-611.6349769314
 10
1129.4970865299
 20
-616.1473234465
 10
1123.7031164231
 20
-620.914255479
 10
1117.9658004216
 20
-625.9274102102
 10
1112.2952037273
 20
-631.1779928633
 10
1106.7012744935
 20
-636.6567921321
 10
1101.193826373
 20
-642.354196341
 10
1095.7825213012
 20
-648.260210307
 10
1090.4768525461
 20
-654.3644728748
 10
1085.2861280535
 20
-660.6562750935
 10
1080.2194541179
 20
-667.1245790042
 10
1075.2857194072
 20
-673.7580370038
 10
1070.4935793684
 20
-680.5450117529
 10
1065.8514410437
 20
-687.4735965915
 10
1061.367448321
 20
-694.5316364276
 10
1057.0494676472
 20
-701.7067490609
 10
1052.9050742278
 20
-708.9863469057
 10
1048.9415387369
 20
-716.3576590738
 10
1045.1658145628
 20
-723.8077537788
 10
1041.5845256086
 20
-731.3235610231
 10
1038.2039546721
 20
-738.8918955269
 10
1035.0300324233
 20
-746.4994798597
 10
1032.0683270005
 20
-754.1329677336
 10
1029.3240342414
 20
-761.7789674169
 10
1026.8019685679
 20
-769.424065228
 10
1024.5065545403
 20
-777.0548490676
 10
1022.4418190947
 20
-784.6579319479
 10
1020.6113844787
 20
-792.2199754779
 10
1019.0184618967
 20
-799.7277132637
 10
1017.6658458761
 20
-807.1679741821
 10
1016.555909365
 20
-814.5277054872
 10
1015.6905995693
 20
-821.7939957094
 10
1015.0714345363
 20
-828.9540973066
 10
1014.6995004919
 20
-835.9954490275
 10
1014.5754499348
 20
-842.9056979486
 10
1014.6995004919
 20
-849.6727211452
 10
1015.0714345363
 20
-856.2846469591
 10
1015.6905995693
 20
-862.7298758257
 10
1016.555909365
 20
-868.9971006235
 10
1017.6658458761
 20
-875.0753265104
 10
1019.0184618967
 20
-880.9538902131
 10
1020.6113844787
 20
-886.6224787331
 10
1022.4418190947
 20
-892.0711474399
 10
1024.5065545403
 20
-897.2903375173
 10
1026.8019685679
 20
-902.2708927323
 10
1029.3240342414
 20
-907.0040754987
 10
1032.0683270005
 20
-911.4815822056
 10
1035.0300324233
 20
-915.6955577846
 10
1038.2039546721
 20
-919.6386094909
 10
1041.5845256086
 20
-923.3038198717
 10
1045.1658145628
 20
-926.6847589026
 10
1048.9415387369
 20
-929.7754952677
 10
1052.9050742278
 20
-932.5706067653
 10
1057.0494676472
 20
-935.0651898199
 10
1061.367448321
 20
-937.2548680852
 10
1065.8514410437
 20
-939.1358001215
 10
1070.4935793684
 20
-940.7046861348
 10
1075.2857194072
 20
-941.9587737659
 10
1080.2194541179
 20
-942.8958629191
 10
1085.2861280535
 20
-943.5143096215
 10
1090.4768525461
 20
-943.8130289074
 10
1095.7825213012
 20
-943.7914967217
 10
1101.193826373
 20
-943.4497508392
 10
1106.7012744935
 20
-942.7883907983
 10
1112.2952037273
 20
-941.8085768492
 10
1117.9658004216
 20
-940.5120279186
 10
1123.7031164231
 20
-938.9010185938
 10
1129.4970865299
 20
-936.9783751325
 10
1135.3375461496
 20
-934.7474705049
 10
1141.2142491314
 20
-932.2122184756
 10
1147.1168857415
 20
-929.3770667382
 10
1153.0351007493
 20
-926.2469891122
 10
1158.9585115949
 20
-922.8274768174
 10
1164.8767266028
 20
-919.1245288403
 10
1170.7793632129
 20
-915.14464141
 10
1176.6560661947
 20
-910.8947966013
 10
1182.4965258144
 20
-906.3824500862
 10
1188.2904959212
 20
-901.6155180537
 10
1194.0278119226
 20
-896.6023633225
 10
1199.698408617
 20
-891.3517806695
 10
1205.2923378508
 20
-885.8729814007
 10
1210.7997859713
 20
-880.1755771918
 10
1216.211091043
 20
-874.2695632257
 10
1221.5167597982
 20
-868.165300658
 10
1226.7074842908
 20
-861.8734984392
 10
1231.7741582264
 20
-855.4051945285
 10
1236.7078929371
 20
-848.771736529
 10
1241.5000329759
 20
-841.9847617799
 10
1246.1421713006
 20
-835.0561769412
 10
1250.6261640233
 20
-827.9981371051
 10
1254.9441446971
 20
-820.8230244719
 10
1259.0885381165
 20
-813.5434266271
 10
1263.0520736074
 20
-806.172114459
 10
1266.8277977815
 20
-798.7220197539
 10
1270.4090867357
 20
-791.2062125096
 10
1273.7896576722
 20
-783.6378780058
 10
1276.963579921
 20
-776.030293673
 10
1279.9252853438
 20
-768.3968057991
 10
1282.6695781029
 20
-760.7508061158
 10
1285.1916437764
 20
-753.1057083047
 10
1287.487057804
 20
-745.4749244651
 10
1289.5517932496
 20
-737.8718415848
 10
1291.3822278655
 20
-730.3097980548
 10
1292.9751504476
 20
-722.802060269
 10
1294.3277664682
 20
-715.3617993506
 10
1295.4377029793
 20
-708.0020680456
 10
1296.303012775
 20
-700.7357778234
 10
1296.922177808
 20
-693.5756762262
 10
1297.2941118524
 20
-686.5343245052
 10
1297.4181624095
 20
-679.6240755841
  0
LWPOLYLINE
  5
C6
330
1F
100
AcDbEntity
  8
0
  6
Continuous
 62
     7
370
    25
100
AcDbPolyline
 90
       20
 70
   128
 43
0.0
 10
1733.7030464016
 20
-931.4859780814
 10
1733.5789958445
 20
-924.7189548848
 10
1733.2070618001
 20
-918.1070290709
 10
1732.5878967671
 20
-911.6618002043
 10
1731.7225869714
 20
-905.3945754066
 10
1730.6126504603
 20
-899.3163495196
 10
1729.2600344397
 20
-893.437785817
 10
1727.6671118576
 20
-887.769197297
 10
1725.8366772417
 20
-882.3205285901
 10
1723.7719417961
 20
-877.1013385127
 10
1721.4765277685
 20
-872.1207832977
 10
1718.954462095
 20
-867.3876005313
 10
1716.2101693359
 20
-862.9100938245
 10
1713.2484639131
 20
-858.6961182454
 10
1710.0745416643
 20
-854.7530665392
 10
1706.6939707278
 20
-851.0878561584
 10
1703.1126817736
 20
-847.7069171275
 10
1699.3369575995
 20
-844.6161807623
 10
1695.3734221086
 20
-841.8210692647
 10
1692.2735634278
 20
-839.9170167875
  0
LWPOLYLINE
  5
C7
330
1F
100
AcDbEntity
  8
0
  6
Continuous
 62
     7
370
    25
100
AcDbPolyline
 90
       58
 70
   128
 43
0.0
 10
1492.2898169006
 20
-1186.3365617398
 10
1493.3343516393
 20
-1186.9270923172
 10
1497.6523323131
 20
-1189.1167705825
 10
1502.1363250358
 20
-1190.9977026188
 10
1506.7784633605
 20
-1192.5665886321
 10
1511.5706033993
 20
-1193.8206762632
 10
1516.50433811
 20
-1194.7577654164
 10
1521.5710120456
 20
-1195.3762121188
 10
1526.7617365382
 20
-1195.6749314047
 10
1532.0674052933
 20
-1195.653399219
 10
1537.4787103651
 20
-1195.3116533365
 10
1542.9861584856
 20
-1194.6502932956
 10
1548.5800877194
 20
-1193.6704793465
 10
1554.2506844137
 20
-1192.3739304159
 10
1559.9880004152
 20
-1190.7629210911
 10
1565.781970522
 20
-1188.8402776299
 10
1571.6224301417
 20
-1186.6093730022
 10
1577.4991331235
 20
-1184.0741209729
 10
1583.4017697336
 20
-1181.2389692355
 10
1589.3199847414
 20
-1178.1088916095
 10
1595.243395587
 20
-1174.6893793147
 10
1601.1616105949
 20
-1170.9864313376
 10
1607.064247205
 20
-1167.0065439073
 10
1612.9409501868
 20
-1162.7566990986
 10
1618.7814098065
 20
-1158.2443525835
 10
1624.5753799133
 20
-1153.477420551
 10
1630.3126959147
 20
-1148.4642658198
 10
1635.9832926091
 20
-1143.2136831668
 10
1641.5772218429
 20
-1137.734883898
 10
1647.0846699634
 20
-1132.0374796891
 10
1652.4959750351
 20
-1126.131465723
 10
1657.8016437903
 20
-1120.0272031553
 10
1662.9923682829
 20
-1113.7354009365
 10
1668.0590422185
 20
-1107.2670970258
 10
1672.9927769292
 20
-1100.6336390263
 10
1677.784916968
 20
-1093.8466642772
 10
1682.4270552927
 20
-1086.9180794385
 10
1686.9110480154
 20
-1079.8600396024
 10
1691.2290286892
 20
-1072.6849269692
 10
1695.3734221086
 20
-1065.4053291244
 10
1699.3369575995
 20
-1058.0340169563
 10
1703.1126817736
 20
-1050.5839222512
 10
1706.6939707278
 20
-1043.0681150069
 10
1710.0745416643
 20
-1035.4997805031
 10
1713.2484639131
 20
-1027.8921961703
 10
1716.2101693359
 20
-1020.2587082964
 10
1718.954462095
 20
-1012.6127086131
 10
1721.4765277685
 20
-1004.967610802
 10
1723.7719417961
 20
-997.3368269624
 10
1725.8366772417
 20
-989.7337440821
 10
1727.6671118576
 20
-982.1717005521
 10
1729.2600344397
 20
-974.6639627663
 10
1730.6126504603
 20
-967.2237018479
 10
1731.7225869714
 20
-959.8639705429
 10
1732.5878967671
 20
-952.5976803207
 10
1733.2070618001
 20
-945.4375787235
 10
1733.5789958445
 20
-938.3962270025
 10
1733.7030464016
 20
-931.4859780814
  0
LWPOLYLINE
  5
C8
330
1F
100
AcDbEntity
  8
0
  6
Continuous
 62
     7
370
    25
100
AcDbPolyline
 90
      136
 70
   128
 43
0.0
 10
1271.7501862524
 20
-694.4418828137
 10
1271.6248382296
 20
-688.2953117758
 10
1271.249065637
 20
-682.3067765888
 10
1270.6236823145
 20
-676.4892470862
 10
1269.750042703
 20
-670.8553227416
 10
1268.6300389115
 20
-665.4172053805
 10
1267.2660966187
 20
-660.1866727542
 10
1265.6611698198
 20
-655.1750530317
 10
1263.8187344291
 20
-650.3932002653
 10
1261.7427807512
 20
-645.8514708832
 10
1259.4378048396
 20
-641.55970126
 10
1256.9087987588
 20
-637.5271864131
 10
1254.1612397729
 20
-633.7626598716
 10
1251.2010784827
 20
-630.2742747617
 10
1248.0347259385
 20
-627.0695861488
 10
1244.6690397548
 20
-624.1555346748
 10
1241.1113092585
 20
-621.5384315263
 10
1237.3692397015
 20
-619.2239447661
 10
1233.4509355733
 20
-617.2170870569
 10
1229.3648830481
 20
-615.5222048058
 10
1225.1199316057
 20
-614.1429687502
 10
1220.7252748658
 20
-613.0823660084
 10
1216.1904306762
 20
-612.3426936097
 10
1211.5252204997
 20
-611.9255535199
 10
1206.7397481426
 20
-611.8318491714
 10
1201.8443778726
 20
-612.061783507
 10
1196.8497119714
 20
-612.6148585402
 10
1191.7665677733
 20
-613.4898764335
 10
1186.6059542366
 20
-614.6849420932
 10
1181.3790481012
 20
-616.197467273
 10
1176.0971696819
 20
-618.0241761803
 10
1170.771758351
 20
-620.1611125702
 10
1165.4143477638
 20
-622.6036483145
 10
1160.0365408786
 20
-625.3464934247
 10
1154.6499848275
 20
-628.3837075088
 10
1149.2663456916
 20
-631.7087126377
 10
1143.8972832343
 20
-635.3143075906
 10
1138.5544256495
 20
-639.1926834516
 10
1133.2493443768
 20
-643.3354405223
 10
1127.9935290411
 20
-647.7336065135
 10
1122.7983625679
 20
-652.3776559768
 10
1117.675096531
 20
-657.2575309353
 10
1112.6348267839
 20
-662.3626626666
 10
1107.6884694284
 20
-667.6819945919
 10
1102.8467371731
 20
-673.204006223
 10
1098.120116132
 20
-678.9167381122
 10
1093.5188431137
 20
-684.8078177543
 10
1089.052883451
 20
-690.8644863826
 10
1084.731909418
 20
-697.0736266017
 10
1080.5652792823
 20
-703.4217907963
 10
1076.562017037
 20
-709.8952302565
 10
1072.7307928567
 20
-716.4799249538
 10
1069.0799043198
 20
-723.1616139059
 10
1065.6172584379
 20
-729.9258260622
 10
1062.3503545309
 20
-736.7579116455
 10
1059.2862679853
 20
-743.6430738798
 10
1056.4316349301
 20
-750.5664010368
 10
1053.792637865
 20
-757.5128987317
 10
1051.3749922699
 20
-764.4675223971
 10
1049.1839342269
 20
-771.4152098669
 10
1047.2242090797
 20
-778.3409139971
 10
1045.5000611567
 20
-785.2296352547
 10
1044.0152245782
 20
-792.0664542036
 10
1042.7729151698
 20
-798.8365638161
 10
1041.775823497
 20
-805.5253015426
 10
1041.0261090382
 20
-812.1181810664
 10
1040.525395508
 20
-818.6009236786
 10
1040.2747673406
 20
-824.9594892023
 10
1040.2747673406
 20
-831.1801064004
 10
1040.525395508
 20
-837.2493028013
 10
1041.0261090382
 20
-843.1539338771
 10
1041.775823497
 20
-848.8812115116
 10
1042.7729151698
 20
-854.4187316969
 10
1044.0152245782
 20
-859.7545013973
 10
1045.5000611567
 20
-864.8769645238
 10
1047.2242090797
 20
-869.7750269618
 10
1049.1839342269
 20
-874.438080599
 10
1051.3749922699
 20
-878.8560262993
 10
1053.792637865
 20
-883.0192957763
 10
1056.4316349301
 20
-886.9188723153
 10
1059.2862679853
 20
-890.5463103019
 10
1062.3503545309
 20
-893.893753513
 10
1065.6172584379
 20
-896.9539521322
 10
1069.0799043198
 20
-899.7202784507
 10
1072.7307928567
 20
-902.1867412216
 10
1076.562017037
 20
-904.3479986359
 10
1080.5652792823
 20
-906.1993698911
 10
1084.731909418
 20
-907.7368453295
 10
1089.052883451
 20
-908.9570951215
 10
1093.5188431137
 20
-909.857476478
 10
1098.120116132
 20
-910.4360393733
 10
1102.8467371731
 20
-910.691530769
 10
1107.6884694284
 20
-910.6233973277
 10
1112.6348267839
 20
-910.2317866112
 10
1117.675096531
 20
-909.5175467612
 10
1122.7983625679
 20
-908.4822246621
 10
1127.9935290411
 20
-907.1280625911
 10
1133.2493443768
 20
-905.4579933616
 10
1138.5544256495
 20
-903.4756339717
 10
1143.8972832343
 20
-901.1852777704
 10
1149.2663456916
 20
-898.5918851592
 10
1154.6499848275
 20
-895.7010728492
 10
1160.0365408786
 20
-892.5191016959
 10
1165.4143477638
 20
-889.0528631404
 10
1170.771758351
 20
-885.3098642835
 10
1176.0971696819
 20
-881.2982116272
 10
1181.3790481012
 20
-877.026593518
 10
1186.6059542366
 20
-872.5042613295
 10
1191.7665677733
 20
-867.741009426
 10
1196.8497119714
 20
-862.7471539507
 10
1201.8443778726
 20
-857.5335104825
 10
1206.7397481426
 20
-852.1113706121
 10
1211.5252204997
 20
-846.4924774871
 10
1216.1904306762
 20
-840.6890003788
 10
1220.7252748658
 20
-834.7135083264
 10
1225.1199316057
 20
-828.578942915
 10
1229.3648830481
 20
-822.2985902473
 10
1233.4509355733
 20
-815.8860521687
 10
1237.3692397015
 20
-809.3552168086
 10
1241.1113092585
 20
-802.7202285023
 10
1244.6690397548
 20
-795.995457157
 10
1248.0347259385
 20
-789.1954671299
 10
1251.2010784827
 20
-782.3349856852
 10
1254.1612397729
 20
-775.4288710981
 10
1256.9087987588
 20
-768.4920804749
 10
1259.4378048396
 20
-761.5396373595
 10
1261.7427807512
 20
-754.5865991955
 10
1263.8187344291
 20
-747.6480247153
 10
1265.6611698198
 20
-740.738941326
 10
1267.2660966187
 20
-733.874312564
 10
1268.6300389115
 20
-727.0690056864
 10
1269.750042703
 20
-720.3377594727
 10
1270.6236823145
 20
-713.6951523031
 10
1271.249065637
 20
-707.1555705856
 10
1271.6248382296
 20
-700.7331775981
 10
1271.7501862524
 20
-694.4418828137
  0
LWPOLYLINE
  5
C9
330
1F
100
AcDbEntity
  8
0
  6
Continuous
 62
     7
370
    25
100
AcDbPolyline
 90
       86
 70
   128
 43
0.0
 10
1664.3358711671
 20
-773.0619839822
 10
1664.2095846816
 20
-769.0452247264
 10
1663.8314149581
 20
-764.9045963442
 10
1663.2034274283
 20
-760.662713512
 10
1662.3290519425
 20
-756.3427439227
 10
1661.2130640364
 20
-751.9682817524
 10
1659.8615588489
 20
-747.5632187963
 10
1658.2819178327
 20
-743.1516139808
 10
1656.4827684391
 20
-738.7575619616
 10
1654.4739369984
 20
-734.4050615271
 10
1652.2663950513
 20
-730.1178845253
 10
1649.8721994263
 20
-725.9194460304
 10
1647.3044263897
 20
-721.8326764575
 10
1644.5771002275
 20
-717.8798963249
 10
1641.7051166492
 20
-714.0826943468
 10
1638.7041614334
 20
-710.4618095238
 10
1635.5906247568
 20
-707.0370178732
 10
1632.381511677
 20
-703.8270244193
 10
1629.0943492569
 20
-700.8493610332
 10
1625.7470908375
 20
-698.1202906798
 10
1622.3580179839
 20
-695.6547185949
 10
1618.9456406365
 20
-693.4661108784
 10
1615.5285960172
 20
-691.5664209466
 10
1612.1255468388
 20
-689.9660242472
 10
1608.7550793757
 20
-688.6736615919
 10
1605.4356019525
 20
-687.6963914175
 10
1602.1852444038
 20
-687.0395512347
 10
1599.0217590554
 20
-686.7067284768
 10
1595.9624237672
 20
-686.6997409064
 10
1593.0239475677
 20
-687.0186266871
 10
1590.2223793949
 20
-687.6616441754
 10
1587.5730204426
 20
-688.6252814327
 10
1585.0903405908
 20
-689.9042754065
 10
1582.7878993759
 20
-691.4916406752
 10
1580.6782719333
 20
-693.3787076002
 10
1578.7729803166
 20
-695.5551696763
 10
1577.0824305679
 20
-698.0091398224
 10
1575.6158558837
 20
-700.7272153045
 10
1574.3812661864
 20
-703.6945509369
 10
1573.3854043767
 20
-706.8949401613
 10
1572.6337095066
 20
-710.3109035617
 10
1572.1302870727
 20
-713.9237843304
 10
1571.8778865938
 20
-717.7138501656
 10
1571.8778865938
 20
-721.660401042
 10
1572.1302870727
 20
-725.7418822672
 10
1572.6337095066
 20
-729.9360022061
 10
1573.3854043767
 20
-734.21985403
 10
1574.3812661864
 20
-738.5700408257
 10
1575.6158558837
 20
-742.9628033816
 10
1577.0824305679
 20
-747.3741499518
 10
1578.7729803166
 20
-751.779987291
 10
1580.6782719333
 20
-756.1562522436
 10
1582.7878993759
 20
-760.479043168
 10
1585.0903405908
 20
-764.7247504791
 10
1587.5730204426
 20
-768.8701855958
 10
1590.2223793949
 20
-772.8927075892
 10
1593.0239475677
 20
-776.770346839
 10
1595.9624237672
 20
-780.4819250241
 10
1599.0217590554
 20
-784.0071707918
 10
1602.1852444038
 20
-787.326830472
 10
1605.4356019525
 20
-790.4227732347
 10
1608.7550793757
 20
-793.2780901141
 10
1612.1255468388
 20
-795.8771863597
 10
1615.5285960172
 20
-798.2058666089
 10
1618.9456406365
 20
-800.2514124178
 10
1622.3580179839
 20
-802.0026517246
 10
1625.7470908375
 20
-803.4500198673
 10
1629.0943492569
 20
-804.5856118232
 10
1632.381511677
 20
-805.4032253827
 10
1635.5906247568
 20
-805.8983950241
 10
1638.7041614334
 20
-806.0684163025
 10
1641.7051166492
 20
-805.9123606207
 10
1644.5771002275
 20
-805.4310803007
 10
1647.3044263897
 20
-804.6272039288
 10
1649.8721994263
 20
-803.5051219987
 10
1652.2663950513
 20
-802.0709629331
 10
1654.4739369984
 20
-800.3325596113
 10
1656.4827684391
 20
-798.2994065896
 10
1658.2819178327
 20
-795.9826082445
 10
1659.8615588489
 20
-793.3948181254
 10
1661.2130640364
 20
-790.5501698445
 10
1662.3290519425
 20
-787.4641998842
 10
1663.2034274283
 20
-784.1537627423
 10
1663.8314149581
 20
-780.6369388786
 10
1664.2095846816
 20
-776.9329359654
 10
1664.3358711671
 20
-773.0619839822
  0
LWPOLYLINE
  5
CA
330
1F
100
AcDbEntity
  8
0
  6
Continuous
 62
     7
370
    25
100
AcDbPolyline
 90
       95
 70
   128
 43
0.0
 10
1674.6596301725
 20
-779.0217631985
 10
1674.533305751
 20
-774.5857247513
 10
1674.154896682
 20
-770.0236476562
 10
1673.5260930323
 20
-765.3559072569
 10
1672.6497031917
 20
-760.6033508151
 10
1671.5296413298
 20
-755.7872044016
 10
1670.170909915
 20
-750.9289780954
 10
1668.5795773714
 20
-746.0503699146
 10
1666.7627509766
 20
-741.1731689075
 10
1664.7285451183
 20
-736.3191578379
 10
1662.4860450537
 20
-731.5100158976
 10
1660.0452663323
 20
-726.7672218818
 10
1657.4171100646
 20
-722.1119582599
 10
1654.6133142344
 20
-717.5650165695
 10
1651.6464012744
 20
-713.1467045558
 10
1648.5296221382
 20
-708.8767554729
 10
1645.2768971181
 20
-704.7742399499
 10
1641.9027536736
 20
-700.857480817
 10
1638.4222615483
 20
-697.1439712714
 10
1634.8509654651
 20
-693.6502967481
 10
1631.2048156991
 20
-690.3920608457
 10
1627.5000968404
 20
-687.3838156367
 10
1623.7533550627
 20
-684.6389966744
 10
1619.9813242244
 20
-682.1698629866
 10
1616.2008511307
 20
-679.9874423237
 10
1612.4288202924
 20
-678.1014819063
 10
1608.6820785147
 20
-676.5204048914
 10
1604.977359656
 20
-675.2512727527
 10
1601.33120989
 20
-674.2997537425
 10
1597.7599138068
 20
-673.6700975757
 10
1594.2794216815
 20
-673.3651164494
 10
1590.905278237
 20
-673.3861724836
 10
1587.6525532169
 20
-673.7331716368
 10
1584.5357740807
 20
-674.4045641265
 10
1581.5688611207
 20
-675.397351351
 10
1578.7650652905
 20
-676.7070992814
 10
1576.1369090228
 20
-678.3279582657
 10
1573.6961303014
 20
-680.252689154
 10
1571.4536302368
 20
-682.472695631
 10
1569.4194243785
 20
-684.9780626089
 10
1567.6025979837
 20
-687.7576005105
 10
1566.0112654401
 20
-690.7988952449
 10
1564.6525340253
 20
-694.0883636514
 10
1563.5324721634
 20
-697.6113141657
 10
1562.6560823228
 20
-701.3520124355
 10
1562.0272786731
 20
-705.2937515942
 10
1561.6488696041
 20
-709.4189268781
 10
1561.5225451826
 20
-713.7091142527
 10
1561.6488696041
 20
-718.1451526999
 10
1562.0272786731
 20
-722.707229795
 10
1562.6560823228
 20
-727.3749701943
 10
1563.5324721634
 20
-732.1275266361
 10
1564.6525340253
 20
-736.9436730496
 10
1566.0112654401
 20
-741.8018993558
 10
1567.6025979837
 20
-746.6805075367
 10
1569.4194243785
 20
-751.5577085437
 10
1571.4536302368
 20
-756.4117196133
 10
1573.6961303014
 20
-761.2208615536
 10
1576.1369090228
 20
-765.9636555694
 10
1578.7650652905
 20
-770.6189191913
 10
1581.5688611207
 20
-775.1658608817
 10
1584.5357740807
 20
-779.5841728954
 10
1587.6525532169
 20
-783.8541219783
 10
1590.905278237
 20
-787.9566375013
 10
1594.2794216815
 20
-791.8733966342
 10
1597.7599138068
 20
-795.5869061798
 10
1601.33120989
 20
-799.0805807031
 10
1604.977359656
 20
-802.3388166055
 10
1608.6820785147
 20
-805.3470618145
 10
1612.4288202924
 20
-808.0918807768
 10
1616.2008511307
 20
-810.5610144646
 10
1619.9813242244
 20
-812.7434351275
 10
1623.7533550627
 20
-814.6293955449
 10
1627.5000968404
 20
-816.2104725598
 10
1631.2048156991
 20
-817.4796046985
 10
1634.8509654651
 20
-818.4311237087
 10
1638.4222615483
 20
-819.0607798755
 10
1641.9027536736
 20
-819.3657610018
 10
1645.2768971181
 20
-819.3447049676
 10
1648.5296221382
 20
-818.9977058144
 10
1651.6464012744
 20
-818.3263133247
 10
1654.6133142344
 20
-817.3335261002
 10
1657.4171100646
 20
-816.0237781698
 10
1660.0452663323
 20
-814.4029191855
 10
1662.4860450537
 20
-812.4781882972
 10
1664.7285451183
 20
-810.2581818202
 10
1666.7627509766
 20
-807.7528148423
 10
1668.5795773714
 20
-804.9732769407
 10
1670.170909915
 20
-801.9319822063
 10
1671.5296413298
 20
-798.6425137998
 10
1672.6497031917
 20
-795.1195632855
 10
1673.5260930323
 20
-791.3788650157
 10
1674.154896682
 20
-787.437125857
 10
1674.533305751
 20
-783.3119505731
 10
1674.6596301725
 20
-779.0217631985
  0
ENDSEC
  0
SECTION
  2
OBJECTS
  0
DICTIONARY
  5
C
330
0
100
AcDbDictionary
281
     1
  3
ACAD_GROUP
350
D
  3
ACAD_LAYOUT
350
1A
  3
ACAD_MLINESTYLE
350
17
  3
ACAD_PLOTSETTINGS
350
19
  3
ACAD_PLOTSTYLENAME
350
E
  3
ACAD_SCALELIST
350
47
  3
DWGPROPS
350
CB
  0
DICTIONARY
  5
D
102
{ACAD_REACTORS
330
C
102
}
330
C
100
AcDbDictionary
281
     1
  0
DICTIONARY
  5
1A
102
{ACAD_REACTORS
330
C
102
}
330
C
100
AcDbDictionary
281
     1
  3
Layout1
350
1E
  3
Layout2
350
26
  3
Model
350
22
  0
DICTIONARY
  5
17
102
{ACAD_REACTORS
330
C
102
}
330
C
100
AcDbDictionary
281
     1
  3
Standard
350
18
  0
DICTIONARY
  5
19
102
{ACAD_REACTORS
330
C
102
}
330
C
100
AcDbDictionary
281
     1
  0
ACDBDICTIONARYWDFLT
  5
E
102
{ACAD_REACTORS
330
C
102
}
330
C
100
AcDbDictionary
281
     1
  3
Normal
350
F
100
AcDbDictionaryWithDefault
340
F
  0
DICTIONARY
  5
47
102
{ACAD_REACTORS
330
C
102
}
330
C
100
AcDbDictionary
281
     1
  3
A0
350
48
  3
A1
350
49
  3
A2
350
4A
  3
A3
350
4B
  3
A4
350
4C
  3
A5
350
4D
  3
A6
350
4E
  3
A7
350
4F
  3
A8
350
50
  3
A9
350
51
  3
B0
350
52
  3
B1
350
53
  3
B2
350
54
  3
B3
350
55
  3
B4
350
56
  3
B5
350
57
  3
B6
350
58
  3
B7
350
59
  3
B8
350
5A
  3
B9
350
5B
  3
C0
350
5C
  3
C1
350
5D
  3
C2
350
5E
  3
C3
350
5F
  3
C4
350
60
  3
C5
350
61
  3
C6
350
62
  3
C7
350
63
  3
C8
350
64
  3
C9
350
65
  3
D0
350
66
  3
D1
350
67
  3
D2
350
68
  0
XRECORD
  5
CB
102
{ACAD_REACTORS
330
C
102
}
330
C
100
AcDbXrecord
280
     1
  1
DWGPROPS COOKIE
  2

  3

  4

  6

  7

  8
b.kav
  9

300
=
301
=
302
=
303
=
304
=
305
=
306
=
307
=
308
=
309
=
 40
0.0
 41
2459921.394972176
 42
2459921.39497235
  1

 90
        0
  0
LAYOUT
  5
1E
102
{ACAD_REACTORS
330
1A
102
}
330
1A
100
AcDbPlotSettings
  1

  2
none_device
  4

  6

 40
0.0
 41
0.0
 42
0.0
 43
0.0
 44
0.0
 45
0.0
 46
0.0
 47
0.0
 48
0.0
 49
0.0
140
0.0
141
0.0
142
1.0
143
1.0
 70
   688
 72
     1
 73
     0
 74
     5
  7

 75
    16
147
1.0
148
0.0
149
0.0
100
AcDbLayout
  1
Layout1
 70
     1
 71
     1
 10
0.0
 20
0.0
 11
420.0
 21
297.0
 12
0.0
 22
0.0
 32
0.0
 14
1.0000000000E+20
 24
1.0000000000E+20
 34
1.0000000000E+20
 15
-1.0000000000E+20
 25
-1.0000000000E+20
 35
-1.0000000000E+20
146
0.0
 13
0.0
 23
0.0
 33
0.0
 16
1.0
 26
0.0
 36
0.0
 17
0.0
 27
1.0
 37
0.0
 76
     0
330
1B
  0
LAYOUT
  5
26
102
{ACAD_REACTORS
330
1A
102
}
330
1A
100
AcDbPlotSettings
  1

  2
none_device
  4

  6

 40
0.0
 41
0.0
 42
0.0
 43
0.0
 44
0.0
 45
0.0
 46
0.0
 47
0.0
 48
0.0
 49
0.0
140
0.0
141
0.0
142
1.0
143
1.0
 70
   688
 72
     1
 73
     0
 74
     5
  7

 75
    16
147
1.0
148
0.0
149
0.0
100
AcDbLayout
  1
Layout2
 70
     1
 71
     2
 10
0.0
 20
0.0
 11
0.0
 21
0.0
 12
0.0
 22
0.0
 32
0.0
 14
0.0
 24
0.0
 34
0.0
 15
0.0
 25
0.0
 35
0.0
146
0.0
 13
0.0
 23
0.0
 33
0.0
 16
1.0
 26
0.0
 36
0.0
 17
0.0
 27
1.0
 37
0.0
 76
     0
330
23
  0
LAYOUT
  5
22
102
{ACAD_REACTORS
330
1A
102
}
330
1A
100
AcDbPlotSettings
  1

  2
none_device
  4
Letter_(8.50_x_11.00_Inches)
  6

 40
6.35
 41
6.35
 42
6.35000508
 43
6.35000508
 44
215.9
 45
279.4
 46
0.0
 47
0.0
 48
0.0
 49
0.0
140
0.0
141
0.0
142
1.0
143
1.0
 70
  1712
 72
     1
 73
     0
 74
     0
  7

 75
     0
147
1.0
148
0.0
149
0.0
100
AcDbLayout
  1
Model
 70
     1
 71
     0
 10
0.0
 20
0.0
 11
279.4
 21
215.9
 12
0.0
 22
0.0
 32
0.0
 14
0.0
 24
0.0
 34
0.0
 15
279.4
 25
215.9
 35
0.0
146
0.0
 13
0.0
 23
0.0
 33
0.0
 16
1.0
 26
0.0
 36
0.0
 17
0.0
 27
1.0
 37
0.0
 76
     0
330
1F
331
29
  0
MLINESTYLE
  5
18
102
{ACAD_REACTORS
330
17
102
}
330
17
100
AcDbMlineStyle
  2
Standard
 70
     0
  3

 62
   256
 51
90.0
 52
90.0
 71
     2
 49
0.5
 62
   256
  6
BYLAYER
 49
-0.5
 62
   256
  6
BYLAYER
  0
ACDBPLACEHOLDER
  5
F
102
{ACAD_REACTORS
330
E
102
}
330
E
  0
SCALE
  5
48
102
{ACAD_REACTORS
330
47
102
}
330
47
100
AcDbScale
 70
     0
300
1:1
140
1.0
141
1.0
290
     1
  0
SCALE
  5
49
102
{ACAD_REACTORS
330
47
102
}
330
47
100
AcDbScale
 70
     0
300
1:2
140
1.0
141
2.0
290
     0
  0
SCALE
  5
4A
102
{ACAD_REACTORS
330
47
102
}
330
47
100
AcDbScale
 70
     0
300
1:4
140
1.0
141
4.0
290
     0
  0
SCALE
  5
4B
102
{ACAD_REACTORS
330
47
102
}
330
47
100
AcDbScale
 70
     0
300
1:5
140
1.0
141
5.0
290
     0
  0
SCALE
  5
4C
102
{ACAD_REACTORS
330
47
102
}
330
47
100
AcDbScale
 70
     0
300
1:8
140
1.0
141
8.0
290
     0
  0
SCALE
  5
4D
102
{ACAD_REACTORS
330
47
102
}
330
47
100
AcDbScale
 70
     0
300
1:10
140
1.0
141
10.0
290
     0
  0
SCALE
  5
4E
102
{ACAD_REACTORS
330
47
102
}
330
47
100
AcDbScale
 70
     0
300
1:16
140
1.0
141
16.0
290
     0
  0
SCALE
  5
4F
102
{ACAD_REACTORS
330
47
102
}
330
47
100
AcDbScale
 70
     0
300
1:20
140
1.0
141
20.0
290
     0
  0
SCALE
  5
50
102
{ACAD_REACTORS
330
47
102
}
330
47
100
AcDbScale
 70
     0
300
1:30
140
1.0
141
30.0
290
     0
  0
SCALE
  5
51
102
{ACAD_REACTORS
330
47
102
}
330
47
100
AcDbScale
 70
     0
300
1:40
140
1.0
141
40.0
290
     0
  0
SCALE
  5
52
102
{ACAD_REACTORS
330
47
102
}
330
47
100
AcDbScale
 70
     0
300
1:50
140
1.0
141
50.0
290
     0
  0
SCALE
  5
53
102
{ACAD_REACTORS
330
47
102
}
330
47
100
AcDbScale
 70
     0
300
1:100
140
1.0
141
100.0
290
     0
  0
SCALE
  5
54
102
{ACAD_REACTORS
330
47
102
}
330
47
100
AcDbScale
 70
     0
300
2:1
140
2.0
141
1.0
290
     0
  0
SCALE
  5
55
102
{ACAD_REACTORS
330
47
102
}
330
47
100
AcDbScale
 70
     0
300
4:1
140
4.0
141
1.0
290
     0
  0
SCALE
  5
56
102
{ACAD_REACTORS
330
47
102
}
330
47
100
AcDbScale
 70
     0
300
8:1
140
8.0
141
1.0
290
     0
  0
SCALE
  5
57
102
{ACAD_REACTORS
330
47
102
}
330
47
100
AcDbScale
 70
     0
300
10:1
140
10.0
141
1.0
290
     0
  0
SCALE
  5
58
102
{ACAD_REACTORS
330
47
102
}
330
47
100
AcDbScale
 70
     0
300
100:1
140
100.0
141
1.0
290
     0
  0
SCALE
  5
59
102
{ACAD_REACTORS
330
47
102
}
330
47
100
AcDbScale
 70
     0
300
1/128" = 1'-0"
140
0.0078125
141
12.0
290
     0
  0
SCALE
  5
5A
102
{ACAD_REACTORS
330
47
102
}
330
47
100
AcDbScale
 70
     0
300
1/64" = 1'-0"
140
0.015625
141
12.0
290
     0
  0
SCALE
  5
5B
102
{ACAD_REACTORS
330
47
102
}
330
47
100
AcDbScale
 70
     0
300
1/32" = 1'-0"
140
0.03125
141
12.0
290
     0
  0
SCALE
  5
5C
102
{ACAD_REACTORS
330
47
102
}
330
47
100
AcDbScale
 70
     0
300
1/16" = 1'-0"
140
0.0625
141
12.0
290
     0
  0
SCALE
  5
5D
102
{ACAD_REACTORS
330
47
102
}
330
47
100
AcDbScale
 70
     0
300
3/32" = 1'-0"
140
0.09375
141
12.0
290
     0
  0
SCALE
  5
5E
102
{ACAD_REACTORS
330
47
102
}
330
47
100
AcDbScale
 70
     0
300
1/8" = 1'-0"
140
0.125
141
12.0
290
     0
  0
SCALE
  5
5F
102
{ACAD_REACTORS
330
47
102
}
330
47
100
AcDbScale
 70
     0
300
3/16" = 1'-0"
140
0.1875
141
12.0
290
     0
  0
SCALE
  5
60
102
{ACAD_REACTORS
330
47
102
}
330
47
100
AcDbScale
 70
     0
300
1/4" = 1'-0"
140
0.25
141
12.0
290
     0
  0
SCALE
  5
61
102
{ACAD_REACTORS
330
47
102
}
330
47
100
AcDbScale
 70
     0
300
3/8" = 1'-0"
140
0.375
141
12.0
290
     0
  0
SCALE
  5
62
102
{ACAD_REACTORS
330
47
102
}
330
47
100
AcDbScale
 70
     0
300
1/2" = 1'-0"
140
0.5
141
12.0
290
     0
  0
SCALE
  5
63
102
{ACAD_REACTORS
330
47
102
}
330
47
100
AcDbScale
 70
     0
300
3/4" = 1'-0"
140
0.75
141
12.0
290
     0
  0
SCALE
  5
64
102
{ACAD_REACTORS
330
47
102
}
330
47
100
AcDbScale
 70
     0
300
1" = 1'-0"
140
1.0
141
12.0
290
     0
  0
SCALE
  5
65
102
{ACAD_REACTORS
330
47
102
}
330
47
100
AcDbScale
 70
     0
300
1-1/2" = 1'-0"
140
1.5
141
12.0
290
     0
  0
SCALE
  5
66
102
{ACAD_REACTORS
330
47
102
}
330
47
100
AcDbScale
 70
     0
300
3" = 1'-0"
140
3.0
141
12.0
290
     0
  0
SCALE
  5
67
102
{ACAD_REACTORS
330
47
102
}
330
47
100
AcDbScale
 70
     0
300
6" = 1'-0"
140
6.0
141
12.0
290
     0
  0
SCALE
  5
68
102
{ACAD_REACTORS
330
47
102
}
330
47
100
AcDbScale
 70
     0
300
1'-0" = 1'-0"
140
12.0
141
12.0
290
     0
  0
ENDSEC
  0
EOF
